0
SECTION
2
HEADER
9
$INSUNITS
70
1
9
$ACADVER
1
AC1014
9
$HANDSEED
5
FFFF
0
ENDSEC
0
SECTION
2
TABLES
0
TABLE
2
VPORT
5
8
100
AcDbSymbolTable
0
ENDTAB
0
TABLE
2
LTYPE
5
5
100
AcDbSymbolTable
0
LTYPE
5
14
100
AcDbSymbolTableRecord
100
AcDbLinetypeTableRecord
2
BYBLOCK
70
0
0
LTYPE
5
15
100
AcDbSymbolTableRecord
100
AcDbLinetypeTableRecord
2
BYLAYER
70
0
0
ENDTAB
0
TABLE
2
LAYER
5
2
100
AcDbSymbolTable
70
2
0
LAYER
5
50
100
AcDbSymbolTableRecord
100
AcDbLayerTableRecord
2
0
70
0
6
CONTINUOUS
0
ENDTAB
0
TABLE
2
STYLE
5
3
100
AcDbSymbolTable
70
1
0
STYLE
5
11
100
AcDbSymbolTableRecord
100
AcDbTextStyleTableRecord
2
STANDARD
70
0
0
ENDTAB
0
TABLE
2
VIEW
5
6
100
AcDbSymbolTable
70
0
0
ENDTAB
0
TABLE
2
UCS
5
7
100
AcDbSymbolTable
70
0
0
ENDTAB
0
TABLE
2
APPID
5
9
100
AcDbSymbolTable
70
2
0
APPID
5
12
100
AcDbSymbolTableRecord
100
AcDbRegAppTableRecord
2
ACAD
70
0
0
ENDTAB
0
TABLE
2
DIMSTYLE
5
A
100
AcDbSymbolTable
70
1
0
ENDTAB
0
TABLE
2
BLOCK_RECORD
5
1
100
AcDbSymbolTable
70
1
0
BLOCK_RECORD
5
1F
100
AcDbSymbolTableRecord
100
AcDbBlockTableRecord
2
*MODEL_SPACE
0
BLOCK_RECORD
5
1B
100
AcDbSymbolTableRecord
100
AcDbBlockTableRecord
2
*PAPER_SPACE
0
ENDTAB
0
ENDSEC
0
SECTION
2
BLOCKS
0
BLOCK
5
20
100
AcDbEntity
100
AcDbBlockBegin
2
*MODEL_SPACE
0
ENDBLK
5
21
100
AcDbEntity
100
AcDbBlockEnd
0
BLOCK
5
1C
100
AcDbEntity
100
AcDbBlockBegin
2
*PAPER_SPACE
0
ENDBLK
5
1D
100
AcDbEntity
100
AcDbBlockEnd
0
ENDSEC
0
SECTION
2
ENTITIES
0
ARC
5
100
100
AcDbEntity
8
0
100
AcDbCircle
10
-3.6714386879702623
20
-55.482950515719587
30
0
40
0.12500000000000314
100
AcDbArc
50
44.999999999999858
51
225.00000000000213
0
LINE
5
101
100
AcDbEntity
8
0
100
AcDbLine
10
-3.5830503403219427
20
-55.394562168071268
30
0
11
-3.1456538072721232
21
-55.394562168071268
31
0
0
LINE
5
102
100
AcDbEntity
8
0
100
AcDbLine
10
-3.1456538072721232
20
-55.394562168071268
30
0
11
-3.1456538072721232
21
-54.727895501404603
31
0
0
LINE
5
103
100
AcDbEntity
8
0
100
AcDbLine
10
-3.1456538072721232
20
-54.727895501404603
30
0
11
-3.5830503403219476
21
-54.727895501404603
31
0
0
ARC
5
104
100
AcDbEntity
8
0
100
AcDbCircle
10
-3.6714386879702623
20
-54.639507153756284
30
0
40
0.12499999999999377
100
AcDbArc
50
135.00000000000173
51
314.99999999999858
0
LINE
5
105
100
AcDbEntity
8
0
100
AcDbLine
10
-3.7598270356185797
20
-54.551118806107972
30
0
11
-3.7598270356185792
21
-54.061228834737939
31
0
0
LINE
5
106
100
AcDbEntity
8
0
100
AcDbLine
10
-3.7598270356185792
20
-54.061228834737939
30
0
11
-34.53148057892566
21
-54.061228834737939
31
0
0
LINE
5
107
100
AcDbEntity
8
0
100
AcDbLine
10
-34.53148057892566
20
-54.061228834737939
30
0
11
-34.53148057892566
21
-54.551118806107958
31
0
0
ARC
5
108
100
AcDbEntity
8
0
100
AcDbCircle
10
-34.619868926573979
20
-54.639507153756284
30
0
40
0.12500000000000069
100
AcDbArc
50
-134.99999999999079
51
45.000000000002302
0
LINE
5
109
100
AcDbEntity
8
0
100
AcDbLine
10
-34.708257274222284
20
-54.727895501404618
30
0
11
-35.145653807272112
21
-54.727895501404603
31
0
0
LINE
5
110
100
AcDbEntity
8
0
100
AcDbLine
10
-35.145653807272112
20
-54.727895501404603
30
0
11
-35.145653807272112
21
-55.394562168071268
31
0
0
LINE
5
111
100
AcDbEntity
8
0
100
AcDbLine
10
-35.145653807272112
20
-55.394562168071268
30
0
11
-34.708257274222291
21
-55.394562168071268
31
0
0
ARC
5
112
100
AcDbEntity
8
0
100
AcDbCircle
10
-34.619868926573979
20
-55.482950515719587
30
0
40
0.12500000000000464
100
AcDbArc
50
-45.000000000002288
51
134.99999999999773
0
LINE
5
113
100
AcDbEntity
8
0
100
AcDbLine
10
-34.53148057892566
20
-55.571338863367913
30
0
11
-34.53148057892566
21
-56.061228834737946
31
0
0
LINE
5
114
100
AcDbEntity
8
0
100
AcDbLine
10
-34.53148057892566
20
-56.061228834737946
30
0
11
-26.155763835902075
21
-56.061228834737946
31
0
0
ARC
5
115
100
AcDbEntity
8
0
100
AcDbCircle
10
-26.067375488253766
20
-56.149617182386251
30
0
40
0.12500000000000464
100
AcDbArc
50
-45.000000000001165
51
135.00000000000117
0
LINE
5
116
100
AcDbEntity
8
0
100
AcDbLine
10
-25.978987140605444
20
-56.238005530034577
30
0
11
-25.978987140605451
21
-56.429732771745819
31
0
0
LINE
5
117
100
AcDbEntity
8
0
100
AcDbLine
10
-25.978987140605451
20
-56.429732771745819
30
0
11
-22.978987140605447
21
-56.429732771745812
31
0
0
LINE
5
118
100
AcDbEntity
8
0
100
AcDbLine
10
-22.978987140605447
20
-56.429732771745812
30
0
11
-22.978987140605447
21
-56.238005530034577
31
0
0
ARC
5
119
100
AcDbEntity
8
0
100
AcDbCircle
10
-22.890598792957125
20
-56.14961718238628
30
0
40
0.12500000000001057
100
AcDbArc
50
45.000000000013813
51
224.9999987925944
0
LINE
5
120
100
AcDbEntity
8
0
100
AcDbLine
10
-22.80221044530882
20
-56.061228834737932
30
0
11
-15.489097169235421
21
-56.061228834737946
31
0
0
ARC
5
121
100
AcDbEntity
8
0
100
AcDbCircle
10
-15.400708821587106
20
-56.149617182386251
30
0
40
0.12500000000000069
100
AcDbArc
50
-45.000000000002906
51
135.00000000000347
0
LINE
5
122
100
AcDbEntity
8
0
100
AcDbLine
10
-15.312320473938788
20
-56.238005530034577
30
0
11
-15.312320473938788
21
-56.429732771745819
31
0
0
LINE
5
123
100
AcDbEntity
8
0
100
AcDbLine
10
-15.312320473938788
20
-56.429732771745819
30
0
11
-12.312320473938788
21
-56.429732771745812
31
0
0
LINE
5
124
100
AcDbEntity
8
0
100
AcDbLine
10
-12.312320473938788
20
-56.429732771745812
30
0
11
-12.312320473938788
21
-56.238005530034577
31
0
0
ARC
5
125
100
AcDbEntity
8
0
100
AcDbCircle
10
-12.223932126290466
20
-56.14961718238628
30
0
40
0.1250000000000086
100
AcDbArc
50
45.000000000013813
51
224.99999999999193
0
LINE
5
126
100
AcDbEntity
8
0
100
AcDbLine
10
-12.135543778642161
20
-56.061228834737932
30
0
11
-3.7598270356185783
21
-56.061228834737946
31
0
0
LINE
5
127
100
AcDbEntity
8
0
100
AcDbLine
10
-3.7598270356185783
20
-56.061228834737946
30
0
11
-3.7598270356185819
21
-55.571338863367913
31
0
0
ENDSEC
0
SECTION
2
OBJECTS
0
DICTIONARY
5
C
100
AcDbDictionary
3
ACAD_GROUP
350
D
3
ACAD_MLINESTYLE
350
17
0
DICTIONARY
5
D
100
AcDbDictionary
0
DICTIONARY
5
1A
330
C
100
AcDbDictionary
0
DICTIONARY
5
17
100
AcDbDictionary
0
ENDSEC
0
EOF
